Top 100 Guitar Sites!      Top 100 Tab Sites!        Tab 'n' Tunes Home



 

#----------------------------------PLEASE NOTE---------------------------------#

#This file is the author's own work and represents their interpretation of the #

#song. You may only use this file for private study, scholarship, or research. #

#------------------------------------------------------------------------------#
Godsmack - I Stand Alone
The Scorpion King Soundtrack?

Tabber: c0z420
Email:coz200059@hotmail.com

Tuning - C,G,C,F,A,D

\ = Slide Down
x = Muted Note
p = Pull Off
h = Hammer on
~ = Let Ring
/ = Slide Up
< = Pick Scratch
* = Harmonic

Ok everyone, i was kinda tired of seeing
the wrong tab for this song so I whipped this
one up.  It is correct because I doubled checked
it from Guitar World and there guitarists even
say that the intro they use octaves and not single
notes, so this should be close to 100% 

Timing and strums maybe not be totally 100%, but
listen to song for where to put exact parts of song.

Please Rate!

Intro
|-----------------------------------|
|-----------------------------------|
|--------14-14-----15-15-----15-15--|
|---------x--x------x--x------x--x--|
|--------12-12-----13-13-----13-13--|
|--0-0-0-------0-0-------0-0--------|

Verse:
|-------------------------------------------------------------------------------|
|-------------------------------------------------------------------------------|
|-------------------------------------------------------------------------------|
|0-0-xx-0-0-xx-6-6-6-0-0-xx-0-0-xx-6p3h5-5--0-0-xx-0-0-xx-6-6-6--0-0-xx-0-0-xx-x|
|0-0-xx-0-0-xx-6-6-6-0-0-xx-0-0-xx-6p3h5-5--0-0-xx-0-0-xx-6-6-6--0-0-xx-0-0-xx-x|
|0-0-xx-0-0-xx-6-6-6-0-0-xx-0-0-xx-6p3h5-5--0-0-xx-0-0-xx-6-6-6--0-0-xx-0-0-xx-x|

|------------------------------------------------------------------------|
|------------------------------------------------------------------------|
|------------------------------------------------------------------------|
|--0-0-xx-0-0-xx-6-6-6--0-0-xx-0-0-xx-6p3h5-5--0-0-xx-0-0-xx-6-6-6--6~~--|
|--0-0-xx-0-0-xx-6-6-6--0-0-xx-0-0-xx-6p3h5-5--0-0-xx-0-0-xx-6-6-6--6~~--|
|--0-0-xx-0-0-xx-6-6-6--0-0-xx-0-0-xx-6p3h5-5--0-0-xx-0-0-xx-6-6-6--6~~--|


Chorus:
|-----------------------------------|
|-----------------------------------|
|--------14-14-----15-15-----15-15--|
|---------x--x------x--x------x--x--|
|--------12-12-----13-13-----13-13--|
|--0-0-0-------0-0-------0-0--------|

Verse 2:
|----------------------------------------------------------------------------------|
|----------------------------------------------------------------------------------|
|----------------------------------------------------------------------------------|
|0-0-xx-0-0-xx-6-6-6--0-0-xx-0-0-xx-6p3h5-5--0-0-xx-0-0-xx-6-6-6--0-0-xx-0-0-xx-x--|
|0-0-xx-0-0-xx-6-6-6--0-0-xx-0-0-xx-6p3h5-5--0-0-xx-0-0-xx-6-6-6--0-0-xx-0-0-xx-x--|
|0-0-xx-0-0-xx-6-6-6--0-0-xx-0-0-xx-6p3h5-5--0-0-xx-0-0-xx-6-6-6--0-0-xx-0-0-xx-x--|

|----------------------------------------------------------------------------------|
|----------------------------------------------------------------------------------|
|----------------------------------------------------------------------------------|
|0-0-x-0-0-xx-6-6-6--0-0-xx-0-0-xx-6p3h5-5--0-0-x-0-0-x-6-6-6--0-0-xx-0-0-x6h3p5-5-|
|0-0-x-0-0-xx-6-6-6--0-0-x-0-0--xx-6p3h5-5--0-0-x-0-0-x-6-6-6--0-0-xx-0-0-x6h3p5-5-|
|0-0-x-0-0-xx-6-6-6--0-0-x-0-0--xx-6p3h5-5--0-0-x-0-0-x-6-6-6--0-0-xx-0-0-x6h3p5-5-|

Post-Verse 2/Pre-Chorus 2:
|----------------------------------------|
|----------------------------------------|
|--7--7--7--7--7--7/10-10-10-10----------|
|--5--5--5--5--5--5/8--8--8--10--0--1-1--|
|--5--5--5--5--5--5/8--8--8--8---0--1-1--|
|--5--5--5--5--5--5/8--8--8--8---0--1-1--|
        "I'm not afraid of fadin'..."

 Chorus:
Guitars 1 & 2 (Heavy Distortion)
|------------------------------------------------------------------|
|------------------------------------------------------------------|
|--------14-14-----15-15-----15-15--------14-14-----15-15----------|
|---------x--x------x--x------x--x---------x--x------x--x----------|
|--------12-12-----13-13-----13-13--------12-12-----13-13-----13/--|
|--0-0-0-------0-0-------0-0--------0-0-0-------0-0-------0-0------|
  "I!!!...............STAND ALONE!!!............FEELING YOUR..."

|------------------------------------------------------|
|------------------------------------------------------|
|--7----7---7---7----7---7/10--10--10--10--10--10--10--|
|--5----5---5---5----5---5/8---8---8---8---8---8---8---|
|--5----5---5---5----5---5/8---8---8---8---8---8---8---|
|--5----5---5---5----5---5/8---8---8---8---8---8---8---|
  "STING DOWN INSIDE ME, I'M NOT DYIN' FOR IT!!!..."

|------------------------------------------------------------------|
|------------------------------------------------------------------|
|--------14-14-----15-15-----15-15--------14-14-----15-15----------|
|---------x--x------x--x------x--x---------x--x------x--x----------|
|--------12-12-----13-13-----13-13--------12-12-----13-13-----13/--|
|--0-0-0-------0-0-------0-0--------0-0-0-------0-0-------0-0------|
  "I!!!...............STAND ALONE!!!............FEELING YOUR..."

|---------------------------------------|
|---------------------------------------|
|--7--7--7--7--7--7/10-10-10-10-10------|
|--5--5--5--5--5--5/8--8--8--8--8--1-1--|
|--5--5--5--5--5--5/8--8--8--8--8--1-1--|
|--5--5--5--5--5--5/8--8--8--8--8--1-1--|
 "-thing that i bel-ieve is fadin"


Pre-Bridge:
|-----------------------------------|
|-----------------------------------|
|--------14-14-----15-15-----15-15--| x3
|---------x--x------x--x------x--x--|
|--------12-12-----13-13-----13-13--|
|--0-0-0-------0-0-------0-0--------|

|----------------------------------------------------------|
|----------------------------------------------------------|
|--------14-14-----15-15-----15-15-------------------------|
|---------x--x------x--x------x--x--0~~--------------------|
|--------12-12-----13-13-----13-13--0~~--------------------|
|--0-0-0-------0-0-------0-0--------0~~--------------------|


Bridge:(Clean)
|----------------------------------------------------------------------------------|
|----------------------------------------------------------------------------------|
|----------------------------------------------------------------------------------|
|----------------5-----------------5--2/5-5-5---2/3-3-3--0-------0--------------0--|
|-------------3-----------------3-----2/5-5-5---2/3-3-3--0---0---------------0-----|
|----------3-----------------3--------2/5-5-5---2/3-3-3--0----------------0--------|
  "Now it's my time (Now it's my time)  Itís  my  time  to  dream (Itís my time to dream)"

(Clean)
|----------------------------------------------|
|----------------------------------------------|
|----------------------------------------------|
|-----------------------5-------------------5--|
|--------------------3-------------------3-----|
|-----------------3-------------------3--------|
  "Dream of the skies (Dream of the skies)"

Guitar 1 (Clean)
|-----------------------------------------------------------------------------------|
|-----------------------------------------------------------------------------------|
|-----------------------------------------------------------------------------------|
|--0------2--------------0------------------2------------------------5-----------5--|
|--0---0------------0-----------------0--------------------------3-----------3------|
|--0-----------0-----------------0---------------------------3-----------3----------|
  "Make me believe That this place isnt plagued By the poison in me......."


Guitar 1 (Distorted)
|--------------------------------------------------------------------------|
|--------------------------------------------------------------------------|
|--------------------------------------------------------------------------|
|--2/5-5-5--2/3-3-3--0~~~~~~~~~~~------------------------------------------|
|--2/5-5-5--2/3-3-3--0~~~~~~~----------------------------------------------|
|--2/5-5-5--2/3-3-3--0~~~--------------------------------------------------|
  "Help  me de-cide if my fire will burn out Before you can breathe"

Guitars 1 (Heavy Distortion)
|-------------------|
|-------------------|
|-------------------|
|--2/5-5-5-2/3-3-3--|
|--2/5-5-5-2/3-3-3--|
|--2/5-5-5-2/3-3-3--|
  "Breathe into me"

Post-Bridge
|-----------------------------------------------------------------------------------|
|-----------------------------------------------------------------------------------|
|-----------------------------------------------------------------------------------|
|--0--0---x--x---0---0--x--x---6---6---6---0---0---x--x---0---0---x--x---6p3h5---5--|
|--0--0---x--x---0---0--x--x---6---6---6---0---0---x--x---0---0---x--x---6p3h5---5--|
|--0--0---x--x---0---0--x--x---6---6---6---0---0---x--x---0---0---x--x---6p3h5---5--|


|----------------------------------------------|
|----------------------------------------------|
|----------------------------------------------|
|--0---0---x--x---0---0--x--x--6--6--6---6~~---|
|--0---0---x--x---0---0--x--x--6--6--6---6~~---|
|--0---0---x--x---0---0--x--x--6--6--6---6~~---|


 Last Chorus:
Guitars 1 & 2 (Heavy Distortion)
|-----------------------------------------------|
|-----------------------------------------------|
|--------14-14-----15-15-----15-15-------14-14--|
|---------x--x------x--x------x--x--------x--x--|
|--------12-12-----13-13-----13-13-------12-12--|
|--0-0-0-------0-0-------0-0-------0-0-0--------|
  "I!!!...............STAND ALONE!!!....INSIDE!!!"

|------------------------------------------------------------------|
|------------------------------------------------------------------|
|--------14-14-----15-15-----15-15--------14-14-----15-15----------|
|---------x--x------x--x------x--x---------x--x------x--x----------|
|--------12-12-----13-13-----13-13--------12-12-----13-13-----13/--|
|--0-0-0-------0-0-------0-0--------0-0-0-------0-0-------0-0------|
  "I!!!...............STAND ALONE!!!............FEELING YOUR..."

|------------------------------------------------------|
|------------------------------------------------------|
|--7----7---7---7----7---7/10--10--10--10--10--10--10--|
|--5----5---5---5----5---5/8---8---8---8---8---8---8---|
|--5----5---5---5----5---5/8---8---8---8---8---8---8---|
|--5----5---5---5----5---5/8---8---8---8---8---8---8---|
  "STING DOWN INSIDE ME, I'M NOT DYIN' FOR IT!!!..."

|------------------------------------------------------------------|
|------------------------------------------------------------------|
|--------14-14-----15-15-----15-15--------14-14-----15-15----------|
|---------x--x------x--x------x--x---------x--x------x--x----------|
|--------12-12-----13-13-----13-13--------12-12-----13-13-----13/--|
|--0-0-0-------0-0-------0-0--------0-0-0-------0-0-------0-0------|
  "I!!!...............STAND ALONE!!!....................Every......."


|---------------------------------------|
|---------------------------------------|
|--7--7--7--7--7--7/10-10-10-10-10------|
|--5--5--5--5--5--5/8--8--8--8--8--1-1--|
|--5--5--5--5--5--5/8--8--8--8--8--1-1--|
|--5--5--5--5--5--5/8--8--8--8--8--1-1--|
 "-thing that i bel-ieve is fadin"


 Outro part 1:
(Heavy Distortion)
|-----------------------------------|
|-----------------------------------|
|--------14-14-----15-15-----15-15--| x4
|---------x--x------x--x------x--x--|
|--------12-12-----13-13-----13-13--|
|--0-0-0-------0-0-------0-0--------|

Outro part 2:
(Heavy Distortion)
|-----------------------------------|
|-----------------------------------|
|-----------------------------------| x4
|--0-0-0-7--7--0-0-8--8--0-0-8--8---|
|--0-0-0-7--7--0-0-8--8--0-0-8--8---|
|--0-0-0-7--7--0-0-8--8--0-0-8--8---|


Ending:
(Heavy Distortion)
|----------------------------------------|
|----------------------------------------|
|----------------------------------------|
|--0-0-0-7--7--0-0-8--8--0-0-8--8--0~~---|
|--0-0-0-7--7--0-0-8--8--0-0-8--8--0~~---|
|--0-0-0-7--7--0-0-8--8--0-0-8--8--0~~---|


lyrics
------
Iíve told you this once before
You canít control me
If you try to take me down
Youíre gonna break

I feel your every
Nothing that youíre doing for me
Iím picking you outta me
You run away

I stand alone
Inside
I stand alone

Youíre always hiding
behind your so called Goddess
So what?
You donít think that we can see your face?

Resurrected
Back before the final fallen
Iíll never rest until
I can make my own way

Iím not afraid of fading
I stand alone
Feeling your sting down inside of me
Iím not dying for it
I stand alone
Everything that I believe is fading
I stand alone
Inside
I stand alone

Now it's my time (Now it's my time)
Itís my time to dream (Itís my time to dream)
Dream of the sky (Dream of the sky)

Make me believe
That this place isnt plague By the poison in me
Help me decide if my fire will burn out
Before you can breathe
Breathe into me

I stand alone
Inside
I stand alone
Feeling your sting down inside me
Iím not dying for it
I stand alone
Everything that I believe is fading
I stand alone
Inside
I stand alone
Inside
I stand alone
Inside
I stand alone
Inside




 

 

Free Guitar Tablature @ TabsnTunes.com

Top 100 Tab sites