Top 100 Guitar Sites!      Top 100 Tab Sites!        Tab 'n' Tunes Home



 

#----------------------------------PLEASE NOTE---------------------------------#

#This file is the author's own work and represents their interpretation of the #

#song. You may only use this file for private study, scholarship, or research. #

#------------------------------------------------------------------------------#
Song title: Goiní Down
Band: Godsmack
Album: Awake

Drop-D tuning (high to low): E-B-G-D-A-D

Intro/Interlude riff:
E|------------------------------------|
B|------------------------------------|
G|------------------------------------|
D|------------------------------------|
A|------0-3-5-3---------0-3-5-3-------|
D|--0-----------5-3-0-----------5-3---|

Verse riff:
E|------------------|
B|------------------|
G|--7~~~~~~~~(7)\---|
D|--x--------(x)----|
A|--5~~~~~~~~(5)\---|
D|------------------|

Chorus riff 1:
E|------------------------------------|
B|------------------------------------|
G|--7-7-7-7-5-5-5-5-4-4-4-4-3-3-3-3---|
D|--7-7-7-7-5-5-5-5-4-4-4-4-3-3-3-3---|
A|--5-5-5-5-3-3-3-3-2-2-2-2-1-1-1-1---|
D|------------------------------------|

Chorus riff 2:
E|----------------------------------------|
B|----------------------------------------|
G|--7-7-7-7-10-10-10-10-9-9-9-9-8-8-8-8---|
D|--7-7-7-7-10-10-10-10-9-9-9-9-8-8-8-8---|
A|--5-5-5-5--8--8--8--8-7-7-7-7-6-6-6-6---|
D|----------------------------------------|

Interlude Variation:
E|------------------------------|
B|------------------------------|
G|------------------------------|
D|------------------------0-0---|
A|------0-3-5-3-----------0-0---|
D|--0-----------5-3-0-----0-0---|
                       PM - - |

Bridge riff:
E|------------------------------------|
B|------------------------------------|
G|--7-7-7-7-7-7-7-7-5-5-5-5-4-4-4-4---|
D|--7-7-7-7-7-7-7-7-5-5-5-5-4-4-4-4---|
A|--5-5-5-5-5-5-5-5-3-3-3-3-2-2-2-2---|
D|------------------------------------|


Order:

Intro riff: bass does it 2x, then guitar 2x
Verse riff: as bass repeats the Intro/Interlude riff, do
            the Verse riff occasionally (about every 2 bass
            repetitions of the Intro/Interlude riff)
Interlude riff: 2x
Verse riff: (not sure exactly)
Interlude riff: 2x
Chorus riff 1
Interlude riff
Chorus riff 2
Interlude riff
Interlude variation
Verse riff: (not sure exactly)
Chorus riff 1
Interlude riff
Chorus riff 2
Interlude riff: 3x
Interlude variation
Bridge riff: 2x
Chorus riff 2
Interlude riff: 2x
Chorus riff 1: 2x
Chorus riff 2
Interlude riff
Interlude


Lyrics:

I see the world is going Ďround
seems to me itís upside down.
Looking for something to say.
I feel a little different anyway.

Does it make much sense to you?
Doing all those things you do.
Making sure that Iím all right?
Yeah. Iím fine!

I've been feeling I'm going down.
2002 MyGuitarTabs.com - All Rights Reserved





 

 

Free Guitar Tablature @ TabsnTunes.com

Top 100 Tab sites