Top 100 Guitar Sites!      Top 100 Tab Sites!        Tab 'n' Tunes Home



 

#----------------------------------PLEASE NOTE---------------------------------#

#This file is the author's own work and represents their interpretation of the #

#song. You may only use this file for private study, scholarship, or research. #

#------------------------------------------------------------------------------#
Brodie
Song: One of a Kind


This whole song is mostly palm muted

Intro
e|----------------
b|----------------
g|-7777-----------
d|-7777-7777-5555-
a|-5555-7777-5555-
e|------5555-3333-

Then...
e|---------------------------------------------------------------
b|---------------------------------------------------------------
g|-12-11-------------12-11----------------------12-11------------
d|-------12-12-14-12-------12-14-14-12-11-12-12-------12-12-14-12
a|---------------------------------------------------------------
e|---------------------------------------------------------------

Verse
e|---------------------------------------------
b|---------------------------------------------
g|-777777777777-------------------------------- x2
d|-777777777777-777777777777-55555555555555555-
a|-555555555555-777777777777-55555555555555555-
e|--------------555555555555-33333333333333333-

Chorus
e|--------------------------------------
b|--------------------------------------
g|-77777777----------------------------- x2
d|-77777777-77777777-55555555-9999-7777-
a|-55555555-77777777-55555555-9999-7777-
e|----------55555555-33333333-7777-5555-

Verse
e|---------------------------------------------
b|---------------------------------------------
g|-777777777777-------------------------------- x2
d|-777777777777-777777777777-55555555555555555-
a|-555555555555-777777777777-55555555555555555-
e|--------------555555555555-33333333333333333-

Chorus
e|--------------------------------------
b|--------------------------------------
g|-77777777----------------------------- x2
d|-77777777-77777777-55555555-9999-7777-
a|-55555555-77777777-55555555-9999-7777-
e|----------55555555-33333333-7777-5555-

Bridge
e|------------------------------------
b|------------------------------------
g|------------------------------------ x2
d|-55555555-55555555-7777777777777777-
a|-55555555-55555555-7777777777777777-
e|-33333333-22222222-5555555555555555-

Solo
e|---------------------------------------------------------------
b|---------------------------------------------------------------
g|-7-7-9-11-9-9-11-12-12-11-------11-9-------9-11-14-------16-14-
d|--------------------------12---------12-12---------12-14-------
a|-----------------------------10--------------------------------
e|---------------------------------------------------------------

e|-----------------------------------------
b|-----------------------------------------
g|-------11-12-11-------11-9-------9-------
d|-12-14----------12---------12-11---11-12-
a|-------------------10--------------------
e|-----------------------------------------

Verse (bass only)
g|------------------------------------
d|------------------------------------ x2 then do a pickslide into...
a|-55555555---------------------------
e|----------55555555-3333333333333333-

Chorus
e|--------------------------------------
b|--------------------------------------
g|-77777777----------------------------- x4
d|-77777777-77777777-55555555-9999-7777-
a|-55555555-77777777-55555555-9999-7777-
e|----------55555555-33333333-7777-5555-

~*żLyrics?*~
I drive up to our school
Your friends all look so cool
Hanging by the bleachers
Your friends all stop and stare
At my spikey hair
And at my punk rock t-shirts

You are the girl for me only you canít see me
Your eyes are not open
I am one of a kind and youíll never find
A guy who will love you more

I see you in the hall
I trip and then I fall
And you just stand there laughing
It wouldnít hurt so bad
If you only had
Offered to help me up

You are the girl for me only you canít see me
Your eyes are not open
I am one of a kind and youíll never find
A guy who will love you more

Maybe someday you will see
Just how wonderful
Our relationship could be
If youíd only give me a chance

I sneak up to your house
As quiet as a mouse
Hoping that you donít hear me
I peek in your window
Itís funny you donít know
That I can see you changing

You are the girl for me only you canít see me
Your eyes are not open
I am one of a kind and youíll never find
A guy who will love you more



 
guitar tab