Top 100 Guitar Sites!      Top 100 Tab Sites!        Tab 'n' Tunes Home



 

#----------------------------------PLEASE NOTE---------------------------------#

#This file is the author's own work and represents their interpretation of the #

#song. You may only use this file for private study, scholarship, or research. #

#------------------------------------------------------------------------------#
Band: Brodie (unsigned i think)
Song: 3 Month Curse
Tabbed by: Xine A. 11-21-02

Intro
e|------------------------
b|------------------------
g|---4-----6-----8-----9-- x4
d|--4-----6-----8-----9---
a|-2--2--4--4--6--6--7--7-
e|------------------------

Verse
e|---------------------
b|---------------------
g|-4444-6666-8888-9999- x6
d|-4444-6666-8888-9999-
a|-2222-4444-6666-7777-
e|---------------------

Bridge
e|-----------
b|-----------
g|------9999- x2
d|-4444-9999-
a|-4444-7777-
e|-2222------


Verse
e|---------------------
b|---------------------
g|-4444-6666-8888-9999- x6
d|-4444-6666-8888-9999-
a|-2222-4444-6666-7777-
e|---------------------

Bridge
e|-----------
b|-----------
g|------9999- x2
d|-4444-9999-
a|-4444-7777-
e|-2222------

Chorus
e|------------------------
b|------------------------
g|-44--------------------- x2
d|-44-44-66-22-66-44-2222-
a|-22-44-66-22-66-44-2222-
e|----22-44-00-44-22-0000-

More Chorus
e|---------------------
b|---------------------
g|-44-------44---------
d|-44-44-66-44-66-44-22
a|-22-44-66-22-66-44-22
e|----22-44----44-22-00

Intro
e|------------------------
b|------------------------
g|---4-----6-----8-----9-- x4
d|--4-----6-----8-----9---
a|-2--2--4--4--6--6--7--7-
e|------------------------

Solo
e|---------------------------------------------------
b|------------------------------------------------9-7
g|-11-11-11-11-11-9-8---------11-11-11-11-11-8-11----
d|--------------------11-8-9-------------------------
a|---------------------------------------------------
e|---------------------------------------------------

e|-7-7-7-7-7-6-7-9/11-9-6-7-4------------------------
b|----------------------------7-7-7-7-7-7-5-4-0---2-0
g|---------------------------------------------------
d|---------------------------------------------------
a|---------------------------------------------------
e|---------------------------------------------------

Verse on Bass
g|---------------------
d|--------------------- x6
a|-2222-4444-6666-8888-
e|---------------------

Bridge
e|-----------
b|-----------
g|------9999- x2
d|-4444-9999-
a|-4444-7777-
e|-2222------

Chorus
e|------------------------
b|------------------------
g|-44--------------------- x2
d|-44-44-66-22-66-44-2222-
a|-22-44-66-22-66-44-2222-
e|----22-44-00-44-22-0000-

More Chorus
e|---------------------
b|---------------------
g|-44-------44---------
d|-44-44-66-44-66-44-22
a|-22-44-66-22-66-44-22
e|----22-44----44-22-00

~*żLYRICS?*~
Weíve f***ing been through this before
Last time I told you I wonít argue anymore
And now you are headed out that door
Iím realizing I donít like you anymore
And thatís alright Iím just losing my mind

Well letís just get the record straight
I had a thing for you long before our first date
Then I convinced you that Iíd changed
But itís ending up the same And itís myself that I hate
And thatís alright Iím just losing my mind

Youíre making plans for tomorrow
I donít think weíll make it through today

I donít think that things could be much worse
When will I be able to break this 3 month curse
Guess I should think of others first
Just stay away from me if you donít want to get hurt
And thatís alright Iím just losing my mind

Youíre making plans for tomorrow
I donít think weíll make it through today




 
guitar tab