Top 100 Guitar Sites!      Top 100 Tab Sites!        Tab 'n' Tunes Home



 

 
#----------------------------------PLEASE NOTE--------------------------------#
#This file is the author's own work and represents their interpretation of the#
#song. You may only use this file for private study, scholarship, or research.#
#-----------------------------------------------------------------------------#

Artist : Blink 182
Title : Dammit
Tabbed By : Chris Andrews@ E-mail:chrispy31@home.com
MAIN RIFF:(4x)
e|----------------------------------------------------------------------|
B|----------------------------------------------------------------------|
G|----------------------------------------------------------------------|
D|------------0-0-2------------0-0-2--------------0-0-2-----------2-2-0-|
A|---3-3----------------------------------0-0---------------------------|
E|----------------------3-3----------------------------------1-1--------|

VERSE:(2x)
e|----------------------------------------------------------------------|
B|----------------------------------------------------------------------|
G|---5--xxxxxx----------------------------------------------------------|
D|---5--xxxxxx------5--xxxxxx-------7--xxxxxx------3-3-3-3-----------|
A|---3--xxxxxx------5--xxxxxx-------7--xxxxxx------3-3-3-3-----------|
E|------------------3--xxxxxx-------5--xxxxxx------1-1-1-1-----------|

(1) It's alright to tell me what you think about me
(2) I won't try to argue or hold it against you

VERSE: (2x)
e|----------------------------------------------------------------------|
B|----------------------------------------------------------------------|
G|---5--5-5-5-----------------------------------------------------------|
D|---5--5-5-5-----------5--5-5-5-----------7--7-7-7------------3--3-3-3-|
A|---3--3-3-3-----------5--5-5-5-----------7--7-7-7------------3--3-3-3-|
E|----------------------3--3-3-3-----------5--5-5-5------------1--1-1-1-|
(3) I know that you're leaving you must have your reasons
(4) The season is calling your pictures are falling down

MAIN RIFF: (2x)
e|----------------------------------------------------------------------|
B|----------------------------------------------------------------------|
G|----------------------------------------------------------------------|
D|---------0-2---------0-0-2---------------0-0-2---------2-2-0---------------|
A|---3-3-----------------------------0-0--------------------------------|
E|-------------------3-3-----------------------------1-1----------------|

THE NEXT 2 VERSES GO JUST LIKE THE FIRST ONE.

VERSE 2:
(1) The steps that I retrace a sad look on your face
(2) The timing and structure did you hear
(3) A day late a buck short I'm writing the report
(4) I'm losing and failing when I move I'm flailing now

CHORUS:
e|----------------------------------------------------------------------|
B|----------------------------------------------------------------------|
G|----5-----------------------------------------------------------------|
D|----5-----------------------------------5------------------------7----|
A|----3-----------------------------------5------------------------7----|
E|----------------------------------------3------------------------5----|
And it will happen once again you'll turn to a friend

e|----------------------------------------------------------------------|
B|----------------------------------------------------------------------|
G|------------------------------------------------------------------5---|
D|----------------------------------3-------------------------------5---|
A|----------------------------------3-------------------------------3---|
E|----------------------------------1-----------------------------------|
someone that understands sees through the master plan

e|----------------------------------------------------------------------|
B|----------------------------------------------------------------------|
G|----------------------------------------------------------------------|
D|---------------------------5----------------------------------7-------|
A|---------------------------5----------------------------------7-------|
E|---------------------------3----------------------------------5-------|
But everybody's gone and I've been here for too long

e|----------------------------------------------------------------------|
B|----------------------------------------------------------------------|
G|----------------------------------------------------------------------|
D|------------------------------3---------------------------------------|
A|------------------------------3---------------------------------------|
E|------------------------------1---------------------------------------|
to face this on my own Well I guess this is growing up.

MAIN RIFF: (2x)

CHORUS

MAIN RIFF:(2X)

SOLO:
e|---0--------------0--------0------------0-------0-----0-------------0-------0-----------0------0----|
B|-----1---------3---1--------1-------3----1-3----1-----1-------3---1-------1------3---1-3----1-------|
G|-------0------------------------0----------------------------0---------------------0----------------|
D|----------------------------------------------------------------------------------------------------|
A|----------------------------------------------------------------------------------------------------|
E|----------------------------------------------------------------------------------------------------|

Riff B

|------------------------------------|
|------------------------------------|
|------------------------------------|
|------------------------------------|
|--3-1-3-1-3-1-3~-1-3-1--------------|
|---------------------------\x/------|
|---------------------------\x/------|





Riff C

|------------------------------------|
|------------------------------------|
|------------------------------------|
|------------------------------------|
|------------------------------------|
|--1-0-1-0-1-0-1-0-1-0---------------|
|--1-0-1-0-1-0-1-0-1-0---------------|





Riff D

|------------------------------------|
|------------------------------------|
|---------<5>------------------------|
|------------------------------------|
|------------------------------------|
|--3-0-0-----------------------------|
|--3-0-0-----------------------------|





Riff E

|------------------------------------|
|------------------------------------|
|------------------------------------|
|------------------------------------|
|------------------------------------|
|--0-6-6-5-5-4-4-4-------------------|
|--0-6-6-5-5-4-4-4-------------------|





Riff F

|------------------------------------|
|------------------------------------|
|------------------------------------|
|------------------------------------|
|----------2~-2-2----------2~-2p0----|
|--2-x-x------------3-x-x------------|
|--2-x-x------------3-x-x------------|





Riff G

|------------------------------------|
|------------------------------------|
|------------------------------------|
|------------------------------------|
|------------------------------------|
|--2-x-x-2-x-x-3-x-x-3-x-x-----------|
|--2-x-x-2-x-x-3-x-x-3-x-x-----------|





Riff H

|------------------------------------|
|------------------------------------|
|------------------------------------|
|------------------------------------|
|--5-3-5-3-5-3-5~-3-5-3--------------|
|------------------------------------|
|------------------------------------|



Riff I

|------------------------------------|
|------------------------------------|
|------------------------------------|
|-----------<5>------------<5>-------|
|-----5/6-------1---5/6--------------|
|------------------------------------|
|--0---------------------------------|





Riff J

|------------------------------------|
|------------------------------------|
|------------------------------------|
|------------------------------------|
|------------------------------------|
|--2-3-3/6-0-2-----------------------|
|--2-3-3/6-0-2-----------------------|





Riff K

|----|--------------------------------|
|----|--------------------------------|
|--6-|--8-8-8-8--11-11-11-11----------|
|----|--------------------------------|
|--3-|--5-5-5-5---8-8-8-8-8-----------|
|----|--------------------------------|
|----|--------------------------------|

*Strum 1st Chord lots.

Well there you have it, my new and improved Ten Ton Hammer tab (sorry about the last one!)

Iím still unsure about some of the parts, especially the intro. But Iím sure itís pretty close.

Enjoy.


 
Free Guitar Tab