Top 100 Guitar Sites!      Top 100 Tab Sites!        Tab 'n' Tunes Home



 

#----------------------------------PLEASE NOTE---------------------------------#

#This file is the author's own work and represents their interpretation of the #

#song. You may only use this file for private study, scholarship, or research. #

#------------------------------------------------------------------------------#
Artist: Blink 182
Song: Adams Song
Album: Enema of the State
E-Mail: beefynerd@www.com
Tabbed by Jeremy Burgess

There are lots of versions of these tabs on the internet, but these are the most accurate.

Intro:

E|-----------------------------------------------------------------
B|-----------------------------------------------------------------
G|-----------------------------------------------------------------
D|----2--------2------2------2------2------2------2-----2----------
A|--0---3---0---3-------3------3------3------3------3-----3--------
E|-------------------3------3------1------1------0-----1-----------

verses

E|-----------------------------------------------------------------------------------
B|-----------------------------------------------------------------------------------
G|-5-5-5-5-5-5-5-5-------------------------------------------------------------------
D|-5-5-5-5-5-5-5-5-3-3-3-3-3-3-3-3-7-7-7-7-7-7-7-7-3-3-3-3-3-3-3-3-------------------
A|-3-3-3-3-3-3-3-3-3-3-3-3-3-3-3-3-7-7-7-7-7-7-7-7-3-3-3-3-3-3-3-3-------------------
E|-----------------1-1-1-1-1-1-1-1-5-5-5-5-5-5-5-5-1-1-1-1-1-1-1-1-------------------

After verses:

E|----------------------------------------------------------------
B|----------------------------------------------------------------
G|---0-----0-------2--------2-------------------------------------
D|-----3-----3---0---3---0---3-----2-------2------2-----2---------
A|-3-----3------------------------0---3---0---3-----3-----3-------
E|----------------------------------------------1-----1-----------

Chorus: (1st part)

E|-----------------------------------------------------------------------------------
B|-----------------------------------------------------------------------------------
G|-5-5-5-5-5-5-5-5-7-7-7-7-7-7-7-7---------------------------------------------------
D|-5-5-5-5-5-5-5-5-7-7-7-7-7-7-7-7-7-7-7-7-7-7-7-7-3-3-3-3-3-3-3-3-------------------
A|-3-3-3-3-3-3-3-3-5-5-5-5-5-5-5-5-7-7-7-7-7-7-7-7-3-3-3-3-3-3-3-3-------------------
E|---------------------------------5-5-5-5-5-5-5-5-1-1-1-1-1-1-1-1-------------------

Chorus: (2nd Part)

E|-----------------------------------------------------------------------------------
B|-----------------------------------------------------------------------------------
G|-5-5-5-5-5-5-5-5-7-7-7-7-7-7-7-7---------------------------------------------------
D|-5-5-5-5-5-5-5-5-7-7-7-7-7-7-7-7-7-7-7-7-7-7-7-7-10-10-10-10-10-10-10-10-----------
A|-3-3-3-3-3-3-3-3-5-5-5-5-5-5-5-5-7-7-7-7-7-7-7-7-8--8--8--8--8--8--8--8------------
E|---------------------------------5-5-5-5-5-5-5-5-8--8--8--8--8--8--8--8------------

Thats the whole song, and to me itís the easiest and most accurate way to play it. If you have any questions, e-mail me.
 
Free Guitar Tab