Top 100 Guitar Sites!      Top 100 Tab Sites!        Tab 'n' Tunes Home



 

#----------------------------------PLEASE NOTE---------------------------------#

#This file is the author's own work and represents their interpretation of the #

#song. You may only use this file for private study, scholarship, or research. #

#------------------------------------------------------------------------------#
"Band: Rage Against the Machine
     Song: Sleep Now in the Fire
    Album: The Battle of Los Angeles
   Tuning: E A D G B e
Tabbed By: Geetarist420 (a.k.a. Charlie Cowan)


Main Riff:
Distortion
e|---------------------------------------------------------------------
B|---------------------------------------------------7b8-7-5-7-5-------
G|---------5b--------------5b--------------5b---5-7b8-7-5-7-5-------
D|-7-7-5-7-----7-7--7-7-5-7-----7-7--7-7-5-7-----7-5-7b8-7-5-7-5-7p5-7-
A|-0-0-0-0-----0-0--0-0-0-0-----0-0--0-0-0-0-----0-0---------0---0---0-
E|---------------------------------------------------------------------


Verse:
   **
e|----------|
B|-------10-|
G|-------12-|
D|--7-------|
A|-10-------|
E|----------|


**Sounded by the Whammy Pedal in harmonizer mode (major second below).


Solo:
For the solo Tom Morello plays the open A-string many many times as he
uses the whammy bar (or tremolo bar) while receiving feedback from his
Peavey Amp.


Song Structure:            
Main Riff 4x
Verse 4x
Main Riff 2x
Verse 4x
Main Riff 2x
Drums Play
Main Riff 1x
Solo 1x
Main Riff 2x


                      Tab Tone:

         Left Ch.                       Right Ch.

   Amp Model: Brit Classic              Fuzz       
       Drive: 7                         7
        Bass: 4.5                       4.75
      Middle: 7                         6
      Treble: 10                        10
  Ch. Volume: 6                         10
      Reverb: 3                         2
Effect Tweak: n/a                       n/a
      Effect: n/a                       n/a
       Notes: Neck p/u.                 Bridge p/u.
              Intro, left               Right Channel.
              channel.



 

GUITAR TAB

Free Guitar Tablature @ TabsnTunes.com

Top 100 Tab sites