Top 100 Guitar Sites!      Top 100 Tab Sites!        Tab 'n' Tunes Home



 

#----------------------------------PLEASE NOTE---------------------------------#

#This file is the author's own work and represents their interpretation of the #

#song. You may only use this file for private study, scholarship, or research. #

#------------------------------------------------------------------------------#
Song: I miss you
Artist: Incubus
Album: Make Yourself

Tabbed by: Brian Williams
Email: Williams5b@aol.com   

Iím almost positive this is correct, but email me if you think otherwise.
Thanks
~Brian

Tuning: Drop D low to high is D A D G B e

Intro (4 times)
E-------------------------------
B-------------------------------
G-------------------------------
D------0---0--------0---0---7---
A----4---4---4----4---4---4-----
D--0------------5---------------

Verse (8 times) do not let notes 
ring , and pluck notes
E-------------------------------
B-------------------------------
G-------------------------------
D------------------------7------
A--4-5-4-5-4-----4-5-4-5--------
D-------------------------------

Chorus (3 complete times, 4th time,
hold 2nd chord, and donít play last)
E----------------------0--------
B----------------------0--------
G--4-------------------7--------
D--4---------5---------7--------
A--2---------5---------5--------
D------------5------------------

Song Structure
Intro
Verse
Chorus
Intro( but softer)
Verse
Chorus
Intro

Lyrics
To see you when I wake up
is a gift I didnít think could be real.
To know that you feel the same as I do
is a three-fold, utopian dream

You do something to me, that I canít explain.
So would I be out of line if I said,
I miss you?

I see your picture, I smell your skin on the empty pillow next to mine
You have only been gone ten days, but already Iím wasting away.

I know Iíll see you again,
whether far or soon.
But I need you to know that I care,
and I miss you